Highway to Hell
Difficulty: Intermediate / Version: 1
Tranpose
[Intro/Verse] 
e|--------------|-------------|---------------------------------------|
B|o-2--2--2-----|-3--3--3-----|-3--3--3----3--3--3----------2--2-----o|
G|--2--2--2-----|-2--2--0-----|-2--2--0----2--2--0-----2----2--2------| x5
D|o-2--2--2-----|-0--0--0-----|-0--0--0----0--0--0-----0----2--2-----o|
A|--0--0--0-----|-------------|-----------------------------0--0------|
E|--------------|(2)-2--3-----|-2--2--3----2--2--3-----2--------------|

[Pre-Chorus]
e|--------------|-------------|------------------------------------|
B|o-2--2--2-----|-3--3--3-----|-3--3--3----3--3--3----------------o|
G|--2--2--2-----|-2--2--0-----|-2--2--0----2--2--0-----2-----------|
D|o-2--2--2-----|-0--0--0-----|-0--0--0----0--0--0-----0----2-----o|
A|--0--0--0-----|-------------|-----------------------------2------|
E|--------------|(2)-2--3-----|-2--2--3----2--2--3-----2----0------|

e|-------------------------------------------------|
B|-------------------------------------------------|
G|-------------------------------------------------|
D|-2--2--2--2--2--2--2--2--2--2--2----2-2-2--------|
A|-2--2--2--2--2--2--2--2--2--2--2----2-2-2--------|
E|-0--0--0--0--0--0--0--0--0--0--0----0-0-0--0-----|

[Chorus] (3x)
e|-----------------------2--------2--2-----3----2------|
B|o-2--------2--------2--3--------3--3-----3----3-----o|
G|--2--------2--------2--2--------2--2-----0----2------|
D|o-2--------2--------2--0--------0--0-----0----0-----o|
A|--0--------0--------0--0----------------------0------|
E|--------------------------------------3--3----2------|

e|----------------------2-------------------------------------------------|
B|-2--------2--------2--3-------------------------------------------------|
G|-2--------2--------2--2-------------------------------------------------|
D|-2--------2--------2--0-------------------------------------------------|
A|-0--------0--------0--0-------------------------------------------------|
E|------------------------------------------------------------------------|
                        
[Verse] 
e|--------------|-------------|---------------------------------------|
B|o-2--2--2-----|-3--3--3-----|-3--3--3----3--3--3----------2--2-----o|
G|--2--2--2-----|-2--2--0-----|-2--2--0----2--2--0-----2----2--2------| x3
D|o-2--2--2-----|-0--0--0-----|-0--0--0----0--0--0-----0----2--2-----o|
A|--0--0--0-----|-------------|-----------------------------0--0------|
E|--------------|(2)-2--3-----|-2--2--3----2--2--3-----2--------------|

[Pre-Chorus]
e|--------------|-------------|------------------------------------|
B|o-2--2--2-----|-3--3--3-----|-3--3--3----3--3--3----------------o|
G|--2--2--2-----|-2--2--0-----|-2--2--0----2--2--0-----2-----------|
D|o-2--2--2-----|-0--0--0-----|-0--0--0----0--0--0-----0----2-----o|
A|--0--0--0-----|-------------|-----------------------------2------|
E|--------------|(2)-2--3-----|-2--2--3----2--2--3-----2----0------|

e|--------------------------------------------------------|
B|--------------------------------------------------------|
G|--------------------------------------------------------|
D|-2--2--2--2--2--2--2--2--2--2--2----2-2-2--2-2-2--2-----|
A|-2--2--2--2--2--2--2--2--2--2--2----2-2-2--2-2-2--2-----|
E|-0--0--0--0--0--0--0--0--0--0--0----0-0-0--0-0-0--0-----|

[Chorus] (3x)
e|-----------------------2--------2--2-----3----2------|
B|o-2--------2--------2--3--------3--3-----3----3-----o|
G|--2--------2--------2--2--------2--2-----0----2------|
D|o-2--------2--------2--0--------0--0-----0----0-----o|
A|--0--------0--------0--0----------------------0------|
E|--------------------------------------3--3----2------|

e|----------------------2---------|
B|-2--------2--------2--3---------|
G|-2--------2--------2--2---------|
D|-2--------2--------2--0---------|
A|-0--------0--------0--0---------|
E|--------------------------------|

[Pre-Solo]
e|-2----3----3--2---------|-2----3----3--2----3--3--3--2----2---|
B|-3----3----3--3---------|-3----3----3--3----3--3--3--3----3---|
G|-2----2----2--2---------|-2----2----2--2----2--2--2--2----2---|
D|-0----0----0--0---------|-0----0----0--0----0--0--0--0----0---|
A|-0----0----0--0---------|-0----0----0--0----0--0--0--0----0---|
E|------------------------|-------------------------------------|

[Solo]
e|-------------5------------------------------------------------------|
B|----------5----------5--5---------5--5--------5--5-----------5--5---|
G|-7^(9)---------7^(9)-------7^(9)--------7^(9)---------7^(9)---------|
D|--------------------------------------------------------------------|
A|--------------------------------------------------------------------|
E|--------------------------------------------------------------------|

e|----------------------------------------------------------|
B|-7^(8)^(7)^(8)--------------------------------------------|
G|-7^(8)^(7)^(8)----5-----7--5^(7)--------------------------|
D|---------------------7---------------5^(4)----2-----------|
A|----------------------------------x--------------3--0-----|
E|----------------------------------------------------------|
           
e|-------------5-----------------------5--x------------------|
B|----------------5--------------------5--x-----5------------|
G|-2----4^(6)--------(6)^4--2----0-----------4^(6)----2--0---|
D|-----------------------------------------------------------|
A|----------------------------------0------------------------|
E|-----------------------------------------------------------|

e|-----5-------------------------------|
B|--------5----------------------------|
G|-1/2-------(6)^4-----///14--/18\\\---|
D|-------------------------------------|
A|-------------------------------------|
E|-------------------------------------|

[Chorus] (3x)
e|-----------------------2--------2--2-----3----2------|
B|o-2--------2--------2--3--------3--3-----3----3-----o|
G|--2--------2--------2--2--------2--2-----0----2------|
D|o-2--------2--------2--0--------0--0-----0----0-----o|
A|--0--------0--------0--0----------------------0------|
E|--------------------------------------3--3----2------|

e|---------------------------------------------3--2-----|
B|-2--------2--------2-------------------------3--3-----|
G|-2--------2--------2-------------------------0--2-----|
D|-2--------2--------2-------------------------0--0-----|
A|-0--------0--------0----------------------------0-----|
E|------------------------------------------3--3--2-----|
               
[Chorus] (3x)
e|-----------------------2--------2--2-----3----2------|
B|o-2--------2--------2--3--------3--3-----3----3-----o|
G|--2--------2--------2--2--------2--2-----0----2------|
D|o-2--------2--------2--0--------0--0-----0----0-----o|
A|--0--------0--------0--0----------------------0------|
E|--------------------------------------3--3----2------|

e|----------------------2-------------|
B|-2--------2--------2--3-------------|
G|-2--------2--------2--2-------------|
D|-2--------2--------2--0-------------|
A|-0--------0--------0--0-------------|
E|------------------------------------|
  
[Ending]
(tremolo pick, free time)
e|------------------------------------------------------------------------|
B|-2--------------------------------------------------------2-------------|
G|-2--------------------------------------------------------2-------------|
D|-2--------------------------------------------------------2-------------|
A|-0--------------------------------------------------------0-------------|
E|------------------------------------------------------------------------|


########################################################################

| /   Slide up
| \   Slide down
| x   Dead note
| b   Bend
|(n)  Ghost note
| ^   Bend