Walk This Way (Tab)
Difficulty: Intermediate / Version: 1
Tranpose
[Intro]
e|----------------------|----------------------------|
B|----------------------|----------------------------|
G|----------------------|----------------------------|
D|-------2-------2------|-------2-------2------2-----|
A|-0-1-2---0-1-2--------|-0-1-2---0-1-2--------------|
E|-----------------0--x-|------------------3p0-------|

                        (fill 1)
e|----------------------|----------------------------|
B|----------------------|----------------------------|
G|----------------------|------------------2---------|
D|-------2-------2------|-------2-------2--2---------|
A|-0-1-2---0-1-2--------|-0-1-2---0-1-2----0---------|
E|-----------------0----|----------------------------|
(Other variations of the intro have more muting (x's) between the riffs)

[Fill 1]
e|--------------------------------------------------|
B|--------------------------------------------------|
G|--------------------------------------------------|
D|----7/8/9/10\-------------------------------------|
A|----7/8/9/10\-------------------------------------|
E|----5/6/7/8-\-------------------------------------|

[Verse 1]
  PM-------------------------------------------------|
e|------------------------------------------------------------|
B|------------------------------------------------------------|
G|------------------------------------------------------------| x8
D|--------------------------10--------------------------------|
A|--------10----10-12-10-------10--10--13--10--12--10---------|
E|-8-8-8-----------------8------------------------------------|

(Verse is repeated 8 times (8 lines of lyrics too). They?re all semi-quavers
(1/4 of a beat) except of the first ?10? on the A-string. Ends on an A5 power chord.)

[Interlude]
e|----------------------|----------------------------|
B|----------------------|----------------------------|
G|----------------------|----------------------------|
D|-------2-------2------|-------2-------2------2-----|
A|-0-1-2---0-1-2--------|-0-1-2---0-1-2--------------|
E|-----------------0xxx-|------------------3p0-------|
                       
e|----------------------|----------------------------|
B|----------------------|----------------------------|
G|----------------------|------------------2---------|
D|-------2-------2------|-------2-------2--2---------|
A|-0-1-2---0-1-2--------|-0-1-2---0-1-2----0---------|
E|-----------------0xxx-|----------------------------|

(Verse again x8 (with second lot of lyrics below:) I've put then in their 'lines'
so you can work out where you are if you get lost)

[Verse 2]
  PM------------------------------------------------|
e|------------------------------------------------------------|
B|------------------------------------------------------------|
G|------------------------------------------------------------|
D|--------------------------10--------------------------------| x8
A|--------10----10-12-10-------10--10--13--10--12--10---------|
E|-8-8-8-----------------8------------------------------------|

[Chorus]
(there are actually two guitars, one plays the bottom set, the other the
top set of notes. But you can play both if you try a barre with 1st finger)
e|------------------------|--------------------------|
B|---------------10-10-10~|---------------10-10-10~--|
G|---------------8--8--8-~|---------------8--8--8-~--|
D|------------------------|-10-12-13-----------------|
A|-10-12-13---------------|-8--8--8------------------|
E|-8--8--8----------------|--------------------------|
  Walk this way           talk this way
  
(Do that another time and that?s it for the chorus but end with "Uh just give me a kiss!")

[1st Solo]
                           hold--|
e|-11hb--------8h11p8----8-----------8------------------------------------|
B|--------------------11---11fb--r11---11-8-------------------------------|
G|------------------------------------------11p10p8-10----10-10fb---8~----|
D|-----------------------------------------------------10-----------------|
A|------------------------------------------------------------------------|
E|------------------------------------------------------------------------|
   .  hold--|                                             hold--|
e|----------------------------------|--------------------------------------|
B|----10hb--r10-8----8--------------|--------------------11fb--r11---------|
G|----------------10---11p10p8-10p8-| 10p8-11p10p8-10p8--------------7~----|
D|-10-------------------------------|--------------------------------------|
A|----------------------------------|--------------------------------------|
E|----------------------------------|--------------------------------------|

[Interlude]
e|----------------------|----------------------------|
B|----------------------|----------------------------|
G|----------------------|----------------------------|
D|-------2-------2------|-------2-------2------2-----|
A|-0-1-2---0-1-2--------|-0-1-2---0-1-2--------------|
E|-----------------0xxx-|------------------3p0-------|
                       
e|----------------------|----------------------------|
B|----------------------|----------------------------|
G|----------------------|------------------2---------|
D|-------2-------2------|-------2-------2--2---------|
A|-0-1-2---0-1-2--------|-0-1-2---0-1-2----0---------|
E|-----------------0xxx-|----------------------------|

[Verse 3]
 PM--------------------------------------------------|
e|------------------------------------------------------------|
B|------------------------------------------------------------|
G|------------------------------------------------------------|
D|--------------------------10--------------------------------|
A|--------10----10-12-10-------10--10--13--10--12--10---------|
E|-8-8-8-----------------8------------------------------------|

[Interlude]
e|----------------------|----------------------------|
B|----------------------|----------------------------|
G|----------------------|----------------------------|
D|-------2-------2------|-------2-------2------2-----|
A|-0-1-2---0-1-2--------|-0-1-2---0-1-2--------------|
E|-----------------0xxx-|------------------3p0-------|
                        
e|----------------------|----------------------------|
B|----------------------|----------------------------|
G|----------------------|------------------2---------|
D|-------2-------2------|-------2-------2--2---------|
A|-0-1-2---0-1-2--------|-0-1-2---0-1-2----0---------|
E|-----------------0xxx-|----------------------------|

[Verse 4]
  PM------------------------------------------------|
e|------------------------------------------------------------|
B|------------------------------------------------------------|
G|------------------------------------------------------------|
D|--------------------------10--------------------------------|
A|--------10----10-12-10-------10--10--13--10--12--10---------|
E|-8-8-8-----------------8------------------------------------|

[Chorus]
e|------------------------|--------------------------|
B|---------------10-10-10~|---------------10-10-10~--|
G|---------------8--8--8-~|---------------8--8--8-~--|
D|------------------------|-10-12-13-----------------| 
A|-10-12-13---------------|-8--8--8------------------|
E|-8--8--8----------------|--------------------------|
  Walk this way           talk this way

(This time there's 8 bars of chorus and the words alternate the walk this way,
talk this way. So repeat the chorus above 4 times and end with "Uh just gimme a
kiss")

[2nd Solo]
                               hold-|                       hold---|
e|---------------------------------------|----------------------------------|
B|-----------10--------------------------|-----8--5---5---------------------|
G|-------9p8----8\7\5-7p5-7p5-7-7hb-r7p5-|--------5-------------------------|
D|-10-10---------------------------------|-7/8------8----5-7-7hb----r7------|
A|---------------------------------------|----------------------------------|
E|---------------------------------------|----------------------------------|

             [ 3  ][ 3  ]    [ 3  ]             .
e|---------------------------------------|-------------------------8--------|
B|----------------------------8p5----5---|----------------------------------|
G|----------5-8p5---8p5---5-8-----8-----8|p7p5--7--7hb-r7p5-7hb--5----------|
D|------7/8-------8-----8----------------|----------------------------------|
A|-3--3----------------------------------|-----------------------------0----|
E|---------------------------------------|----------------------------------|

[3rd Solo ]
(2nd guitar plays intro riff in background, or play it in the spaces if you want.)
                 w/bar---|   w/bar   w/bar---|  w/bar   w/bar----|  w/bar (half tone bend)
e|---------|---------------|-------|-----------|-------|------------|----------|
B|---------|---------------|-------|-----------|-------|------------|-12\------| 
G|---2fb---|r2---4fbr4fhb~-|-2fb~--|-4fbr4fhb~-|-14fb~-|-16fbr16fhb~|----------|
D|---------|---------------|-------|-----------|-------|------------|----------|
A|---------|---------------|-------|-----------|-------|------------|----------|
E|---------|---------------|-------|-----------|-------|------------|----------|

   w/bar-----|
e|------------|12----------------------------------|---------------------------|
B|------------|---15p12-15fbr15p12----15fb-15fbr15p|12-----------------------14|
G|-16fbr16fhb~|--------------------15--------------|--15p14p12-14hbr14-12----14|
D|------------|------------------------------------|----------------------14-14|
A|------------|------------------------------------|---------------------------|
E|------------|------------------------------------|---------------------------|

e|---------12-16-------12-------------13-------|--------------------------------|
B|------12-------15fb~----15p12----------15p14p|12-----12---------------------14|
G|12h14-------------------------12h13----------|--14hb----14hbr14p12---14--12-14|
D|---------------------------------------------|---------------------14--14---14|
A|---------------------------------------------|--------------------------------|
E|---------------------------------------------|--------------------------------|
          
e|------12-15fb----15fb-15~-|-12-------14-17-17-17hb-17fbr17p15-15fb~~~r15\----|
B|--------------------------|----15/17-----------------------------------------|
G|12h14---------------------|--------------------------------------------------|
D|--------------------------|--------------------------------------------------|
A|--------------------------|--------------------------------------------------|
E|--------------------------|--------------------------------------------------|

e|----12------------------------------------------------------|
B|-------15p12------------------------------------------------|
G|/13----------15p14p12-14fbr14p12----12----------------------|
D|---------------------------------14----14p12----------------|
A|---------------------------------------------14-13----------|
E|------------------------------------------------------------|

e|------------------------------------------------------------|
B|------------------------------------------------------------|
G|------------------------------------------------------------|
D|-----------------------------------12fb--r12\---------------|
A|-12-11h12p11----12----11-12p11------------------------------|
E|-------------12----12----------12---------------------------|

e|----------------------------|-------------------------------|
B|----------------------------|-------------------------------|
G|-2fbr2p0---2-2fbr2p0-----2fb|r2p0---0-2-2fbr2p0--2----------|
D|---------2-----------2-2----|-----2--------------2----------|
A|----------------------------|--------------------0----------|
E|----------------------------|-------------------------------|

(begin fade)
e|----0-------0-----------------------|--0--------------------|
B|-/3---0-3/5---0-3p0-0-3hb-0-3p0-0-3p|0-0-3p0-0-3fbr3p0------|
G|------------------------------------|------------------2p0-2|
D|------------------------------------|----------------------2|
A|------------------------------------|----------------------0|
E|------------------------------------|-----------------------|
                    .
e|---------------------------------|---------------------------|
B|---------------------------------|---------------------------|
G|-2fbr2p0---2fbr2p0---------------|---------------------2--2/-|
D|---------2---------2-2~~~~-0h2p0-|--------------2p0-2--2-----|
A|---------------------------------|-2\1p0---------------0-----|
E|---------------------------------|-------3b--0---------------|

  let ring------------------------------|
e|---------------------------|---------------------------------|
B|-12------12----12----12----|-12----12------15fb--15fb~~~~----|
G|----12------12----12----12-|----12----12---------------------|
D|---------------------------|---------------------------------|
A|---------------------------|---------------------------------|
E|---------------------------|---------------------------------|

                                 (fade out)
e|--------------------------------|
B|-12------12----15fbr15--12------|
G|----14fb----12-------------14fb-|
D|--------------------------------|
A|--------------------------------|
E|--------------------------------|