Higher
Difficulty: Intermediate / Version: 5
Tranpose
[Intro] (clean)-(distortion)

E|-------------------------------------------------------|
B|-------------------------------------------------------|
G|------7-7-9-9-9h11-11-9-11-11h12-9-9-9-9-11-11-11p9p7--|
D|--0-0-0-0-0-0-0----0--0-0--0-----0-0-7-7-7--7--7-------|
A|--0-0-0-0-0-0-0----0--0-0--0-----0-0-7-7-7--7--7-------|
D|--0-0-0-0-0-0-0----0--0-0--0-----0-0-7-7-7--7--7-------|

E|-------------------------------------------------------|
B|-------------------------------------------------------|
G|--9-9-11-9-7-7-7-9-9-7-7-12-11-11-11-9-11-11-9-7-7-7---|
D|--7-7-7--7-0-5-5-5-5-5-5-0--0--0--0--0-0--0--0-0-0-0---|
A|--7-7-7--7-0-5-5-5-5-5-5-0--0--0--0--0-0--0--0-0-0-0---|
D|--7-7-7--7-0-5-5-5-5-5-5-0--0--0--0--0-0--0--0-0-0-0---|


[Verse](clean)

E|--5-0-0--------------0--0--0-0--0--0--0--0-------------|
B|--3-3-3--------------0--0--0-0--0--0--0--0-------------|
G|--2-2-2-------0------7--7--7-7--7--7--7--7-------------|
D|--0-0-0-----0-0------7--7--7-7--7--7--7--7-------------|
A|--0-0-0-4h5-0---4h5--5--5--5-5--5--5--5--5-------------|
D|--0-0-0-0-------4h5--5--5--5-5--5--5--5--5-------------|

E|--5-0-0--------------0--0---0----0--------0------------|
B|--3-3-3--------------0--0---0------0--------0----------|
G|--2-2-2-------0------7--7-7-7--7-----7--------7--------|
D|--0-0-0-----0-0------7--7-7-7--7-------7--------7------|
A|--0-0-0-4h5-0---4h5--5--5-5-5--5-----------------------|
D|--0-0-0-0-------4h5--5--5-5-5--5-----------------------|


[Pre-Chorus] (distortion)

E|-------------------------------------------------------|
B|----------------------------8-8-8-8-8-8-8-8-8-8-8-8----|
G|--7-7-7-7-7-7-7-7-7-7-7-7-7-7-7-7-7-7-7-7-7-7-7-7-7----|
D|--4-4-4-4-4-4-4-4-4-4-4-4-4-5-5-5-5-5-5-5-5-5-5-5-5----|
A|--4-4-4-4-4-4-4-4-4-4-4-4-4-5-5-5-5-5-5-5-5-5-5-5-5----|
D|--4-4-4-4-4-4-4-4-4-4-4-4-4-5-5-5-5-5-5-5-5-5-5-5-5----|
  pm.................................................
E|-------------------------------------------------------|
B|----------------------------8-8-8-8-8-8/20-20-20-20~~~-|
G|--7-7-7-7-7-7-7-7-7-7-7-7-7-7-7-7-7-7-7/19-19-19-19----|
D|--4-4-4-4-4-4-4-4-4-4-4-4-4-5-5-5-5-5-5/17-17-17-17----|
A|--4-4-4-4-4-4-4-4-4-4-4-4-4-5-5-5-5-5-5/17-17-17-17----|
D|--4-4-4-4-4-4-4-4-4-4-4-4-4-5-5-5-5-5-5/17-17-17-17----|
  pm.........................


[Chorus] (distortion)
E|-------------------------------------------------------|
B|-------------------------------------------------------|
G|-----------------------7--7-----------6-7-9\7\6-7~~~---|
D|--7-7-7-7-7-7-7-7---0--5--x--0-0-0-0-------------------|
A|--5-5-5-4-4-4-4-5p4-0--5--5--0-0-0-0-------------------|
D|-----------------------5--4--0-0-0-0-------------------|

E|-----------------------------------------|-------------|
B|-----------------------------------------|-------------|
G|---------------------7--7----------------|-7--7--7-----|
D|--0-0-7-7-7-7-7---0--5--x--0-0-0-0--4bp0-|-5--x--x--0--|
A|--0-0-4-4-4-4-5p4-0--5--5--0-0-0-0-------|-5--5--5--0--|
D|--0-0----------------5--4--0-0-0-0-------|-5--4--4--0--|
                             repeat then end with this^^^

[Bridge](distortion)

E|-------------------------------------------------------|
B|--3-3-3-3-3-3-10-10-10-10-10-10-----8-8-8-8-8-8-8-8-8--|
G|--2-2-2-2-2-2-9--9--9--9--9--9------7-7-7-7-7-7-7-7-7--|
D|--0-0-0-0-0-0-7--7--7--7--7--7--0-0-5-5-5-5-5-5-5-5-5--|
A|--0-0-0-0-0-0-7--7--7--7--7--7--0-0-5-5-5-5-5-5-5-5-5--|
D|--0-0-0-0-0-0-7--7--7--7--7--7--0-0-5-5-5-5-5-5-5-5-5--|
                                pm...
E|------------------------|------------------------------|
B|------------------------|------------------------------|
G|------------------------|----12-11------12-11-11\7-----|
D|--5-0-0-0-5-0-0-0-5-0-0-|--0-x--x---0-0-x--x--x-\x-----|
A|--5-0-0-0-5-0-0-0-5-0-0-|--0-10-9---0-0-10-9--9-\5-----|
D|--5-0-0-0-5-0-0-0-5-0-0-|--0--------0-0----------------|