Whats This Life For
Difficulty: Intermediate / Version: 1
Tranpose
[Intro]
   G            D                        Bm9*          C
e|---3---3---0------------2^3^2-----------2---2---2--------------3----------------|
B|---0---0-------------3---------3--------2---2---2----------5------5-------------|
G|---0---0----------2---------------2-----2---2---2-------5------------5----------| (x2)
D|---0---0-------0------------------------4---4---4-------------------------------|   
A|---2---2--------------------------------2---2---2----3--------------------------|
E|---3---3------------------------------------------------------------------------|

[Verse 1]
G     D    Bm9*  C
  Hurray for a child
                    G
That makes it through
                D
If there's any way
     Bm9*    C              G
Because the answer lies in you
                  D
They're laid to rest
      Bm9*   C                 G
Before they know just what to do
                 D
Their souls are lost
       B5                 C5
Because they could never find

[Chorus 1]
G5            D5     B5  C5
 What's this life for

[Chorus 2]
G             D                     Bm9*
 I see your soul, it's kind of gray
           C                 G
I see your heart, you look away
             D                    Bm9*
You see my wrist, I know your pain
             C                G
I know your purpose on your plane
                  D
Don't say a last prayer
       B5                 C5
Because they could never find
G5            D5     B5  C5
 What's this life for

[Chorus 3]
                        G 
But they ain't here anymore
                          C     Am - Asus2 - Am
Don't have to settle the score
      D7
Cause we all live
           C         G
Under the reign of one king

    C        G5       D5      B5       C5
e|--3--|  |-- --|  |-- --|  |-- --|  |-- --|
B|--3--|  |-- --|  |-- --|  |-- --|  |-- --|
G|--5--|  |-- --|  |--7--|  |--4--|  |--5--|
D|--5--|  |--5--|  |--7--|  |--4--|  |--5--|
A|--3--|  |--5--|  |--5--|  |--2--|  |--3--|
E|-- --|  |--3--|  |-- --|  |-- --|  |-- --|

   Bm9*      D7     Asus2 
e|--2--|  |--3--|  |--0--|
B|--2--|  |--1--|  |--0--|
G|--2--|  |--3--|  |--2--|
D|--4--|  |--0--|  |--2--|
A|--2--|  |-- --|  |--0--|
E|-- --|  |-- --|  |-- --|