Let It Go (Acoustic)
Difficulty: Novice / Version: 1
Tranpose
CAPO 1

E|--0-----0-----0--5-----5-----5--0-----0-----0--3-----3-----1-----0-----
B|-----------------------------------------------------------------------
G|-----0-----0--------0-----0--------0-----0--------0-----0-----0-----0--
D|-----------------3-----------------------------------------------------
A|--3-----------------------------0--------------------------------------
E|-----------------------------------------------3-----------------------

From walking home and talking loads

E|--0-----0-----0--5-----5-----5--0-----0-----0--------------------------
B|-----------------------------------------------3-----3-----3-----3-----
G|-----0-----0--------0-----0--------0-----0--------0-----0-----0-----0--
D|-----------------3-----------------------------------------------------
A|--3-----------------------------0--------------------------------------
E|-----------------------------------------------3-----------------------

To seeing shows in evening clothes with you

2x
E|------------------------------------------------------------------------
B|--5-----5-----5--5-----5-----5-----5--5-----5-----5--5-----5-----5-----5
G|-----5-----5--------5-----5-----5--------5-----5--------5-----5-----5---
D|--7--------------5--------------------4--------------3------------------
A|------------------------------------------------------------------------
E|------------------------------------------------------------------------

But now we're sleeping at the edge
Holding something we don't need
All this delusion in our heads
Is gonna bring us to our knees

Solo
E|------8-8P5-5-5-7-8-8--------------------------------------------------
B|--5H6-----------------5-5-8-8-6-5--------------------------------------
G|-----------------------------------------------------------------------
D|-----------------------------------------------------------------------
A|-----------------------------------------------------------------------
E|-----------------------------------------------------------------------

Chords
                  C   F 
So come on let it gooooooo
            Am   G
Just let it beeeeeeee
                 C   F 
Why don?t you be youooooo
            G
And I?ll be me

                   C   F 
Everything that?s  broooooke
                    Am   G
Just send it to the breeeeeeze
                 C   F 
Why don?t you be youooooo
            G
And I?ll be me