Boogie chillen
Difficulty: Novice / Version: 1
Tranpose
[Verse]
e|-------------------------|
B|------------------2------|
G|----2-------------2------|
D|---(2)-(2)-(2)-(2)-------|
A|---(0)--0---3---5--------|
E|-------------------------|

e|-----------------3---------------------1/3--|
B|--------------2--2------------------2--3/5--|
G|--------------2---------------------2-------|
D|--(2)-(2)-(2)-----------(2)-(2)-(2)---------|
A|---0---3---5-------------0---3---5----------|
E|--------------------------------------------|

[Solo]
e|--1\3--3\5---8-5-5-8-5---8-5-5-8-5----------------|
B|--3\5--5\7---7-7-7-7-7---7-7-7-7-7----------------|
G|--------------------------------------------------|
D|--------------------------------------------------|
A|--------------------------------------------------|
E|--------------------------------------------------|