Someday After A While
Difficulty: Intermediate / Version: 1
Tranpose
e|----10-13-15-|-15--13----|-------------------|-------------------------|
B|-13----------|--------15-|--b-13-11-10-------|-------------------------|
G|-------------|-----------|-12----------10----|--h----h----h---------10-|
D|-------------|-----------|----------------10-|-8-10-8-10-8-10---s------|
A|-------------|-----------|-------------------|----------------10\12----|
E|-------------|-----------|-------------------|-------------------------|

 rake                                                     
e|----13-11--------rbp----p-----------h------|--s---8----|
B|--13------13-11-11--9-11-9----9----9-11-10-|-8\10------|
G|-x-------------------------10---10---------|-----------|
D|-------------------------------------------|--------10-|
A|-------------------------------------------|-----------|
E|-------------------------------------------|-----------|


-------------------------
VERSE 1 
********
I've got to ride          that lonesome train
e|---------rb------13----------------------13----13--------|
B|--------13--10---13h15-------------------13h15-----------|
G|---------------------------------------------------15----|
D|------------------------------------------------------15-|
A|---------------------------------------------------------|
E|---------------------------------------------------------|

My heart is heavy                 with aches and pain
e|----------------brp---------------------------------rbp---h-------------|
B|---------------11--9------9------------------------11--9-9-11-9-----h---|
G|------------10-------10-----------------------------------------10-8-10-|
D|------------------------------------------------------------------------|
A|------------------------------------------------------------------------|
E|------------------------------------------------------------------------|

But I said someday            someday baby after awhile               you'll be sorry
e|----------------------------------------------------------------------|
B|--------------------------b---------10-------s-------b-10-11-10-11-10-|
G|--------------s---10-----12-10------10-----10\12----13----------------|
D|-------------8\12----12-----------------------------------------------|
A|----------------------------------------------------------------------|
E|----------------------------------------------------------------------|


-------------------------
SOLO
*****
00:52
e|------------------------------|---------|
B|-br---------h-p---b------p----|--h--1---|
G|-3-1---1-3-1-3-1--3-3-1-3-1-2-|-1-2-----|
D|-----3------------------------|---------|
A|------------------------------|-------3-|
E|------------------------------|---------|
    
             b           b     b     rb   b  b  b  br   h
e|----10-13-15~~~~-|----17-17-17-17-17-|-19-19-19-19-17--19-|----------b--------p-----|--h-------------|
B|-13--------------|-13--------|-------|--------------------|----9-11-11-11-9-11-9----|-9-11-9----9~~~-|
G|-----------------|-----------|-------|--------------------|-10-------------------10-|--------10------|
D|-----------------|----------pre------|--------------------|-------------------------|----------------|
A|-----------------|---------bend------|--------------------|-------------------------|----------------|
E|-----------------|-------------------|--------------------|-------------------------|----------------|
 
01:16  b                                        b  b            h
e|----17-17-13--------------|----------------|-19-19-19-17-19-17-19-17-----|-13-11-------------|
B|-13----------13--brp------|--b-----------b-|---------------------------s-|-13----13-11-------|
G|----------------15--13----|-13-10----10-13-|-------------------------17\-|-------------13-10-|
D|-----------------------15-|-------12-------|-----------------------------|-------------------|
A|--------------------------|----------------|-----------------------------|-------------------|
E|--------------------------|----------------|-----------------------------|-------------------|

01:28                                                                           s
e|-13-13-11-8--b-----------p-----------h--p--|--------------------|-------10-11-\-|
B|-13-13------11-11-9-11-11-9----9-11-9-11-9-|--------------------|-13-13---------|
G|----------------------------10-------------|-brp---------s---10-|---------------|
D|-------------------------------------------|-8--6---6-8-8\10----|---------------|
A|-------------------------------------------|------8-------------|---------------|
E|-------------------------------------------|--------------------|---------------|


-------------------------
VERSE 2
********
Troubles trouble  on my mind
e|--------------|-------------|
B|--------------|-------------|
G|--------------|-------------|
D|--3--3--5--3--|--3--3--5--3-|
A|--------------|-------------|
E|--------------|-------------|

Troubles trouble  way down the line
e|--------------|---------------|
B|--------------|---------------|
G|--2--2--3--2--|--2--2--3--5~~~|
D|--------------|---------------|
A|--------------|---------------|
E|--------------|---------------|

But I don't need             your sympathy
e|-------------------------|--------------|
B|-------------8--8--9--8--|--8--8--9--8--|
G|-------------------------|--------------|
D|-------------------------|--------------|
A|-------------------------|--------------|
E|-------------------------|--------------|

C
So baby baby don't you pity me
I may be blue                        but I don't mind
             b                                       b
e|----------11-11-8----------h------|---------------19-19-19-19-17----s-|
B|------------------11-9----9-10~~~-|----------------------|-------19-\-|
G|-----------------------10---------|----------------------|------------|
D|----------------------------------|---------------------pre-----------|
A|----------------------------------|--------------------bend-----------|
E|----------------------------------|-----------------------------------|

I,m gonna leave                  all my cares behind
                       br                         b          br
e|----------s---14-16-16-14~~~-|-----------------17-17-|----16-13----|
B|----------\16----------------|-----------------------|-13-------13-|
G|-----------------------------|-----------------------|-------------|
D|-----------------------------|-----------------------|-------------|
A|-----------------------------|-----------------------|-------------|
E|-----------------------------|-----------------------|-------------|

  I said someday    someday someday someday baby after         awhile 
                      b                                       b 
e|-----------------|-16--------------------------------------17-17-|----------------|
B|--brp------------|----15------------------15------------15-------|-13------h------|
G|-15--13-15-13----|-----------------------------------------------|----15-13-14----|
D|--------------15-|-----------------------------------------------|-------------10-|
A|-----------------|-----------------------------------------------|----------------|
E|-----------------|-----------------------------------------------|----------------|

you'll be sorry   b  b  rbp       b       b
e|-------------|-19-19-19--17----17-|----17-17-13----------|
B|--------br---|--------------19----|-13----------13--br---|
G|-10-13-13-10-|--------------------|----------------15-13-|
D|-------------|--------------------|----------------------|
A|-------------|--------------------|----------------------|
E|-------------|--------------------|----------------------|

C F