A Minute Longer
Difficulty: Novice / Version: 1
Tranpose
Intro and Verse riff
e--0h2--2--0----0---0--2----0----3-------2---0---|
b--3----3--3----0---0--0----0----3----3--0---0---|
g--2------------0---0------------0----0----------|
d--0------------2---2------------0----0----------|
a------------------------------------------------|
e------------------------------------------------|

D---------------------------------Em
They're calling out come on let's go
--------G--------------------------D
But I'm miles away to a year before
---------------------------------Em--
Laughs from a glass drank to the past
-------G--------------------------Em---------------G
On the old green seat like velvet to the hand_______

Chorus
D--------------------Em7----------G--
Think I'd like to stay a minute longer
D------------------Em7-------------G--
Would you like to stay a minute longer

Middle 8
Bm7--------G
Hey______ Ah
Bm7--------G
Hey______ Ah
Bm7--------G
Hey______ Ah
A---Asus4--A
Ah__________