Evening
Difficulty: Intermediate / Version: 1
Tranpose
[Intro]

e|------------------------------------------------------|
B|------------------------------------------------------|
G|----7----5--------------------------------------------|  x2 (and repeating throughout 
after the verses start
D|------7-----7-----6--5---------5----------------------|
A|-5-------------5--------5---8-----5-------------------|
E|------------------------------------------------------|


[Verse]

Dm7      C7   Bb7       A7        A7addG       Dm     C7
Eeeeeeevenin',    every night you come and you find me

    Bb7                    A7  A7addG     Dm    C7
 Oh, Lord   And you always come and remind me  Oh Yes....

          Bb7   A7    Dm7              C7              Bb7       A7
That my gal is gone, my baby's gone, O Lord       my baby's gone

Dm7      C7    Bb7                A7     A7addG  Dm7    C7
Eeeeeeevenin', can't you see I'm deeply in your power

   Bb7          A7          A7addG   Dm7          C7      Bb7   A7    Dm7 C7 Bb7 A7 A7addG
Oh Lord   Every minute seems like an hour  Oh Lord     since my gal is gone, my baby's gone


[Chorus]

D9            D9              D9             D9      D9                         
Shadows fall   upon the wall   That's when I need your kiss most of all   

             C9                Bb9          E7
And though I try, how can I go on?

E7
  Purty baby


[Verse]

Dm7      C7   Bb7       A7        A7addG     Dm7     C7   Bb7
Eeeeeeevenin' let me sleep till gray dawn is breakin'  Oh yes

        A7     A7addG    Dm7    C7  Bb7   A7  A7addG
I don't care if I don't awaken, oh Lord, Lord


[Outro]

(Spice it up!!)

e|---9-----------------------------------------------------------|
B|---------13--10------------------------------------------------|
G|---------------------12b1-12-----10----------------------------|
D|12----12---------12----------12------12------------------------|
A|---------------------------------------------------------------|
E|---------------------------------------------------------------|

Fade

************************************

| b  Bend